SOAURGHLIERS

nordöstersjökustartilleriflygspaningssimulatoranläggningsmaterielunderhallsuppföljnings-systemdiskussionsinläggsf
 
AccueilFAQGroupesRechercherS'enregistrerConnexion

Partagez | 
 

 Stairway to heaven - Led Zeppelin

Voir le sujet précédent Voir le sujet suivant Aller en bas 
AuteurMessage
Agagurk
Taulier
Taulier


Nombre de messages : 1236
Age : 35
Localisation : à l'autre bout de la masse dans ta tronche
Réputation : 6
Points : 249
Date d'inscription : 20/04/2007

MessageSujet: Stairway to heaven - Led Zeppelin   Ven 23 Mar - 17:58


1. Intro (guitare acoustique) / Intro (acoustic guitar)
e-------5-7-----7-8-----8-2-----2-0---------0---------------------
b-----5-----5-------5-------3-------1---1-----1-------------------
g---5---------5-------5-------2-------2---------2-0-2-2-----------
d-7-------6-------5-------4-------3-------------------------------
a-------------------------------------------------2-0-0---0--/8-7-
e-----------------------------------------------------------------

e-------5-7-----7-8-----8-2-----2-0---------0---------------------
b-----5-----5-------5-------3-------1---1-----1-------------------
g---5---------5-------5-------2-------2---------2-0-2-2-----------
d-7-------6-------5-------4-------3-------------------------------
a-------------------------------------------------2-0-0-------0-2-
e-----------------------------------------------------------------

e-------0-2-----2-0-----0-----------------3-----3-3h2-2-2---------
b-----------3-------1-----1-------1-----1---0-----------3---------
g-----0-------2-------2-----2-------0---------0-------------------
d---2-----0-------3-------------------2-----------0-----0---------
a-3-----------------------0---0-2-3---------------------------0-2-
e-----------------------------------------3-----------------------

e-------0-2-----2-0-----0-----------------------2-0-0-0-----------
b-----------3-------1-----1-------------1-----3---1-1-1-----------
g-----0-------2-------2-----2---------0-----2-----2-2-2-----------
d---2-----0-------3-----------------2-----0-------3-3-3-----------
a-3-----------------------0---0-2-3-------------------------------
e-----------------------------------------------------------------
2. Couplet 1 (guitare acoustique) / Verse 1 (acoustic guitar)
e-------5-7-----7-8-----8-2-----2-0---------0---------------------
b-----5-----5-------5-------3-------1---1-----1-------------------
g---5---------5-------5-------2-------2---------2-0-2-2-----------
d-7-------6-------5-------4-------3-------------------------------
a-------------------------------------------------2-0-0-----------
e-----------------------------------------------------------------

e-------5-7-----7-8-----8-2-----2-0---------0---------------------
b-----5-----5-------5-------3-------1---1-----1-------------------
g---5---------5-------5-------2-------2---------2-0-2-2-----------
d-7-------6-------5-------4-------3-------------------------------
a-------------------------------------------------2-0-0-------0-2-
e-----------------------------------------------------------------

e---------2-----2-0-------------------------3-----3-3h2-2-2---------
b-------1---3-------1---1-0p1-------1-----1---0-----------3---------
g-----0-------2-------2-------2-------0---------0-------------------
d---2-----0-------3---------------------2-----------0-----0---------
a-3-----------------------------0-2-3---------------------------0-2-
e-------------------------------------------3-----------------------

e-------0-2-----2-0-------------------------2-----2-0-0-0---------
b-----------3-------1---1-0p1-------1-----1---3-----1-1-1---------
g-----0-------2-------2-------2-------0---------2---2-2-2---------
d---2-----0-------3---------------------2---0-------3-3-3---------
a-3-----------------------------0-2-3-----------------------------
e-----------------------------------------------------------------

e-------5-7-----7-8-----8-2-----2-0---------0---------------------
b-----5-----5-------5-------3-------1---1-----1-------------------
g---5---------5-------5-------2-------2---------2-0-2-2-----------
d-7-------6-------5-------4-------3-------------------------------
a-------------------------------------------------2-0-0---0--/8-7-
e-----------------------------------------------------------------
3. Pont 1 (guitare acoustique) / Bridge 1 (acoustic guitar)
e-------5-7---7------8-------2-------0-------0--------------------
b-----5----5-5-5----5-5-----3-3-----1--1----1--1------------3-----
g---5-------5---5--5---5---2---2---2----2--2----2-0-2-2-----0-----
d-7-------6-------5-----5-4-----4-3-------3-----------------0-----
a-------------------------------------------------2-0-0-----2-----
e-----------------------------------------------------------------
4. Refrain (guitare acoustique) / Refrain (acoustic guitar)
e-3---3-3-----3---X---0---X---3---X---2-----------2---2-2-2-------
b-1---1-1-1---1---X---1---X---3---X---3-------3---3---3-3-3-------
g-2---2-2-2---2---X---2---X---2---X---2-------2---2---2-2-2-------
d-2-------2---2---X---2---X---0---X---0-------0---0---0---0-------
a-0-------0---0---X---0---X-------X---------------------------0---
e-----------------------------------------------------------------

e-3---3-3-----3---X---0---X---7---X---5---X---3---X---5---X-------
b-1---1-1-1---1---X---1---X---8---X---7---X---5---X---7---X-------
g-2---2-2-2---2---X---2---X---7---X---7---X---5---X---7---X-------
d-2-------2---2---X---2---X---------------------------------------
a-0-------0---0---X---0---X-----------------------------------0---
e-----------------------------------------------------------------

e-3---3-3-----3---X---0---X---3---X---2-----------2---2-2-2-------
b-1---1-1-1---1---X---1---X---3---X---3-------3---3---3-3-3-------
g-2---2-2-2---2---X---2---X---2---X---2-------2---2---2-2-2-------
d-2-------2---2---X---2---X---0---X---0-------0---0---0---0-------
a-0-------0---0---X---0---X-------X---------------------------0---
e-----------------------------------------------------------------

e-3---3-3-----3---X---0---X---7---X---5---X---3---X---5---X-------
b-1---1-1-1---1---X---1---X---8---X---7---X---5---X---7---X-------
g-2---2-2-2---2---X---2---X---7---X---7---X---5---X---7---X-------
d-2-------2---2---X---2---X---------------------------------------
a-0-------0---0---X---0---X-----------------------------------0---
e-----------------------------------------------------------------
5. Couplet2 (guitare acoustique) / Verse2 (acoustic guitar)
e--------------------------------------------------3---0-------------
b---------1-------0-0h1--------1-----------1-------0-X-1-------------
g-------0-------0------2-----2-----------0-------0-0-X-2-------------
d-----2-------0------------2-----------2-------0---0-X-2-------------
a-2/3-------2------------0-------0-2-3-------2-----2---0---------0-2-
e--------------------------------------------------3-----------------

e------------------------------------------------3---0-------------
b-------1-------0-0h1--------1-----------1-------0-X-1-------------
g-----0-------0------2-----2-----------0-------0-0-X-2-------------
d---2-------0------------2-----------2-------0---0-X-2-------------
a-3-------2------------0-------0-2-3-------2-----2---0---------0-2-
e------------------------------------------------3-----------------

e-----------------
b-------1-------0-
g-----0-------0---
d---2-------0-----
a-3-------2-------
e-----------------
6. Pont2 (guitare acoustique) / Bridge 2 (acoustic guitar)
e-2-------------------------------0-2-3-----------0-2-3----------
b-3-------------------------------3-3-3-----------3-3-3----------
g-2-------------------------------2-2-2-----------2-2-2----------
d---------------------------------0-0-0-----------0-0-0----------
a----------------------------------------------------------------
e----------------------------------------------------------------

e-0-2-3-------3-------2-------0-----0-0---2-----2-2---0-------
b-3-3-3-------3-------3-------3-----3-3---3-----3-3---3-------
g-2-2-2-------2-------2-------0-----0-0---0-----0-0---0---0---
d-0-0-0-------0-------0-------2-----2-2---2-----2-2---2---2---
a-----------------------------3-----3-3---3-----3-3---3---3---
e---------------------------------------------------------X---

e-0-----0-0---2-----2-2---0-------2---0-2-3-----------0-2-3----
b-3-----3-3---3-----3-3---3-------3---3-3-3-----------3-3-3----
g-0-----0-0---0-----0-0---0-------2---2-2-2-----------2-2-2----
d-2-----2-2---2-----2-2---2-------0---0-0-0-----------0-0-0----
a-3-----3-3---3-----3-3---3------------------------------------
e--------------------------------------------------------------

e------0-2-3-------3-------2-------0-----0-0---2-----2-2---0------
b------3-3-3-------3-------3-------3-----3-3---3-----3-3---3------
g------2-2-2-------2-------2-------0-----0-0---0-----0-0---0------
d------0-0-0-------0-------0-------2-----2-2---2-----2-2---2------
a----------------------------------3-----3-3---3-----3-3---3------
e-----------------------------------------------------------------

e---------------------------------
b---------0-----0---------0-------
g---------0-----0---------0-------
d---------0-----0---------0-------
a-2---2---2-----2-2---2---2---X---
e-X---X---X-------X---X---X---X---
7. Solo (guitare électrique) / Solo (electric guitar)
e----------5--------------------------------8--8-
b------------8-5-----------------------8b10------
g-7b9------------7-5---7p5-----------------------
d--------------------7-----7p5-------------------
a-----------------------------8------------------
e------------------------------------------------

e--8b10---8--5-------8--10p8------------------------5-------
b---------------8b10---------10p8----8h10-------------8-5---
g---------------------------------10-----------7B(9)------7-
d-----------------------------------------------------------
a-----------------------------------------------------------
e-----------------------------------------------------------

e-------------------------------5------------------------
b---------------------------------8-5--------------------
g-5---7p5------------5-5-5------------7-5--7p5-----------
d---7-----7-5---5h7-----------------------7----7p5-7p5---
a-------------7----------------------------------------8-
e--------------------------------------------------------

e---------------------------------------------
b------------------------------------------13-
g---------10-------------------12----12-14----
d------10----12-10----10-12/14----14----------
a-8/12-------------12-------------------------
e---------------------------------------------

e------------------------15B(17)b(15)-13--------------------
b--15B(17)--15-13-15-13------------------15B(17)b(15)-13----
g--------------------------------------------------------14-
d-----------------------------------------------------------
a-----------------------------------------------------------
e-----------------------------------------------------------

e--------------------------------------------------------------
b-13-15B(17)b(15)p13--13-15B(17)b(15)p13--13-15B(17)b(15)p13---
g-------------------14------------------14------------------14-
d--------------------------------------------------------------
a--------------------------------------------------------------
e--------------------------------------------------------------

e--------------------------------------------------------------
b-13-15B(17)b(15)p13--13-15B(17)b(15)p13--13-15B(17)b(15)p13---
g-------------------14------------------14------------------14-
d--------------------------------------------------------------
a--------------------------------------------------------------
e--------------------------------------------------------------

e--------------------------------------------------------------
b-13-15B(17)b(15)p13--13-15B(17)b(15)p13--13-15B(17)b(15)p13---
g-------------------14------------------14------------------14-
d--------------------------------------------------------------
a--------------------------------------------------------------
e--------------------------------------------------------------

e-----------------------------------------------15B(17)--
b-13--15B(17)b(15)p13--13--15B(17)b(15)p13----13---------
g--------------------14---------------------14-----------
d--------------------------------------------------------
a--------------------------------------------------------
e--------------------------------------------------------

e-(17)b15-12---12-------------------------------15-------------
b------------15---15-13----13-15-13---13-15B(17)--(17)b15p13---
g-----------------------14----------14----------------------14-
d--------------------------------------------------------------
a--------------------------------------------------------------
e--------------------------------------------------------------

e----------17----------------------------------------------
b--------20--20--------------------------------------------
g-19B(21)----------19B(21)b(19)-17--19-17--17-19B(21)------
d---------------------------------19-----19----------------
a----------------------------------------------------------
e----------------------------------------------------------

e---------------------------------------------------------
b---------------------------------------------------------
g--14B(17)-14B(17)-14-12h14-12-14-------------------------
d---------------------------------------------------------
a---------------------------------------------------------
e---------------------------------------------------------

e-----------------------------------------------
b-----------------------------------------------
g--10B(14)--(10)b9-7--7--7h9p7------------------
d-------------------10-10-----10-7--------------
a-----------------------------------------------
e-----------------------------------------------

e----20p17----20p17----20p17----20p17----20p17----20b22--
a-17-------17-------17-------17-------17-------17--------
g--------------------------------------------------------
d--------------------------------------------------------
a--------------------------------------------------------
e--------------------------------------------------------
8. Couplet final (guitare électrique) / Final verse (electric guitar)
e-5---5---X-X-X-X-3---3---X-X-X-X-1---X-1---X-1---X-1---X-1---3---
b-5---5---X-X-X-X-3---3---X-X-X-X-1---X-1---X-1---X-1---X-1---3---
g-5---5---X-X-X-X-4---4---X-X-X-X-2---X-2---X-2---X-2---X-2---4---
d-7---7---X-X-X-X-5---5---X-X-X-X-3---X-3---X-3---X-3---X-3---5---
a-7---7---X-X-X-X-5---5---X-X-X-X-3---X-3---X-3---X-3---X-3---5---
e-5---5---X-X-X-X-3---3---X-X-X-X-1---X-1---X-1---X-1---X-1---3---

e-5---5---X-X-X-X-3---3---X-X-X-X-1---X-1---X-1---X-1---X-1---3---
b-5---5---X-X-X-X-3---3---X-X-X-X-1---X-1---X-1---X-1---X-1---3---
g-5---5---X-X-X-X-4---4---X-X-X-X-2---X-2---X-2---X-2---X-2---4---
d-7---7---X-X-X-X-5---5---X-X-X-X-3---X-3---X-3---X-3---X-3---5---
a-7---7---X-X-X-X-5---5---X-X-X-X-3---X-3---X-3---X-3---X-3---5---
e-5---5---X-X-X-X-3---3---X-X-X-X-1---X-1---X-1---X-1---X-1---3---
9. Fin (guitare électrique) / End (electric guitar)
e-----------------------------------------------------------------
b-3-----5-------8-------10------13--------12------13------12------
g-5B(7)-7B(9)---10B(12)-12B(14)-15B(17)---14B(16)-15B(17)-14B(16)-
d-----------------------------------------------------------------
a-----------------------------------------------------------------
e-----------------------------------------------------------------

e-----------------------------------------------------------------
b-13------12------13------15------13------12------15------13------
g-15B(17)-14B(16)-15B(17)-17B(19)-15B(17)-14B(16)-17B(19)-15B(17)-
d-----------------------------------------------------------------
a-----------------------------------------------------------------
e-----------------------------------------------------------------
Revenir en haut Aller en bas
Voir le profil de l'utilisateur http://soaurghliers.niceboard.com
Hachs
Pilier de comptoir
Pilier de comptoir


Nombre de messages : 108
Age : 23
Réputation : 3
Points : 58
Date d'inscription : 27/06/2007

MessageSujet: Re: Stairway to heaven - Led Zeppelin   Lun 26 Mar - 17:12

Tu fais ça a la guitare? :O
Revenir en haut Aller en bas
Voir le profil de l'utilisateur
 
Stairway to heaven - Led Zeppelin
Voir le sujet précédent Voir le sujet suivant Revenir en haut 
Page 1 sur 1
 Sujets similaires
-
» Kama Sutra - Map 27 : Stairway to Heaven
» Snow Heaven
» Heaven or hell > Mon mini jeux à 2
» key of heaven
» Mise en cale sèche du Porte avions classe Graf Zeppelin

Permission de ce forum:Vous ne pouvez pas répondre aux sujets dans ce forum
SOAURGHLIERS :: Taverne :: Multimédia-
Sauter vers: